Patreon - Invista $1, $5, $10 na Music Online

Jorge e Mateus

SERTANEJA

Play

Não Para de Chover


    E |-----------------------2--------------------------------|
    B |-----------------3-3-------0h2-2-2-0--------------------|
    G |-----------4-4-4---------------------2-4-4-4-4-2-4-2----|
    D |----0---------------------------------------------------|
    A |-0h2--4-2-----------------------------------------------|
    E |--------------------------------------------------------|

    E |--------------------------------------------------------|
    B |-----------------3-3-------0h2-2-2-0--------------------|
    G |-----------4-4-4---------------------2-4-4-4-4-2-4-2----|
    D |--------------------------------------------------------|
    A |---5-4-2------------------------------------------------|
    E |--------------------------------------------------------|

    Bm F#m
    Não para de chover
    G D A
    E eu preciso do sol pra lembrar seu calor
    Bm F#m
    Se eu te magoei
    G D A
    Desculpa estou aprendendo o que é amor

    F#m Bm
    Nas noites mais escuras
    G D F#m
    Nos bares, nas ruas, tudo é solidão
    Bm
    Não me deixe sozinho,
    G A
    falta de carinho rima com nova paixão

    D A
    Eu quero o seu amor
    G D D4 D
    Eu quero ser seu homem, se você quiser
    A
    Se eu tiver seu amor
    G D D4 D
    Juro não preciso amar outra mulher
    G A D
    Não deixe apagar, a fogueira do meu coração

    (solo) Bm F#m G D A/C# Bm F#m G D

    E |-----------------------2-------------------------------|
    B |-----------------3-3-------0h2-2-2-0-------------------|
    G |-----------4-4-4---------------------2-4-4-4-4-2-4-2---|
    D |----0--------------------------------------------------|
    A |-0h2--4-2----------------------------------------------|
    E |-------------------------------------------------------|

    E |--------------------------------------------------------|
    B |-----------------3-3-------0h2-2-2-0--------------------|
    G |-----------4-4-4---------------------2-4-4-4-4-2-4-2----|
    D |--------------------------------------------------------|
    A |---5-4-2------------------------------------------------|
    E |--------------------------------------------------------|

    (repete tudo)

    D A
    Eu quero o seu amor
    G D D4 D
    Eu quero ser seu homem, se você quiser
    A
    Se eu tiver seu amor
    G D D4 D
    Juro não preciso amar outra mulher

    D A
    Eu quero o seu amor
    G D D4 D
    Eu quero ser seu homem, se você quiser
    A
    Se eu tiver seu amor
    G D D4 D
    Juro não preciso amar outra mulher
    G A D
    Não deixe apagar, a fogueira do meu coração
    G A D
    Não deixe apagar, a fogueira do meu coração

    ( D D4 D D4 ) (2x)

Jorge e Mateus


    Ouvir Músicas Grátis - Ouvindo a música Não Para de Chover, de Jorge e Mateus -

    Jorge e Mateus - Jorge e Mateus - Não para de ChoverJorge e Mateus - Jorge e Mateus - Não Para De Chover (AO VIVO NO CALDAS COUNTRY 2012)Jorge e Mateus - Jorge e Mateus - Não para de choverJorge e Mateus - Jorge e Mateus - Não para de Chover - Credicard Hall 22/12Jorge e Mateus - jorge & mateus nao para de choverJorge e Mateus - Não Para de ChoverJorge e Mateus - Jorge e Mateus  -  Não para de Chover 20/12/2013 CITIBANK HALLJorge e Mateus - RODRIGO E RAFAEL ( não para de chover ) Jorge e mateusJorge e Mateus - Não Para de  chover. Jorge e MateusJorge e Mateus - Renan Puras - Não para de chover (Jorge e Mateus)Jorge e Mateus - Jorge e Mateus - medley flor + não para de chover.Jorge e Mateus - Jorge & Mateus - Não para de Chover - rodeio de itaquaJorge e Mateus - Jorge & Mateus - Tempo ao Tempo / Nao Para de ChoverJorge e Mateus - Não para de chover - Jorge e Mateus BARRA MUSICJorge e Mateus - Sandro Rocha - jorge e mateus (Nao para de chover)Jorge e Mateus - Jorge e Mateus Não para de choverJorge e Mateus - Não para de chover- Jorge e MateusJorge e Mateus - Não para de chover - Jorge e Mateus no Maior Show do Mundo PBJorge e Mateus - Não para de chover - Jorge e Mateus - Uba 2013Jorge e Mateus - Chove, Chove - Jorge e Mateus (aula de violão completa)Jorge e Mateus - Flávio & Warley - Não para de Chover.mpg
      TOP 50 ARTISTS
    Music Online© - Desde 1998
    por Andre Luis de Andrade
    | Twitter: @andreandrade : @iLoveMOLBR
    Versão Brasileira 'http://www.musiconline.com.br'
    Leia nossa Política de Privacidade