Forró Noda De Caju

Music Online App on Facebook

Play

Meu mundo sem você

    Sem motivos pra sorrir
    É o que sinto quando você não está aqui
    E ao dormir sinto um vazio dentro de mim
    Que perturba e não quer sair
    Por que você me deixou só?

    Sem céu pra colorir
    Sem flores pra florir
    Meus dias são de dor e aflição

    Quando você chorou eu chorei também
    A dor de te perder não nos fez bem
    E hoje meu mundo não é feliz
    Sem ter você junto a mim

    Estou cansado de finjir
    Que te esqueci, te amei demais
    Pouco a pouco eu me perco mais e mais
    Sem te sentir, sem te beijar, te abraçar
    Tu é o sol do meu jardim
    Por que você me deixou só?

    Sem céu pra colorir
    Sem flores pra florir
    Meus dias são de dor e aflição

    Quando você chorou eu chorei também
    A dor de te perder não nos fez bem
    E hoje meu mundo não é feliz
    Sem ter você

    Eu tentei te esquecer
    Mas sei que não dá
    Seu toque é especial em mim
    Se eu vivi foi só pra te amar

    Quando você chorou eu chorei também
    A dor de te perder não nos fez bem
    E hoje meu mundo não é feliz
    Sem ter você junto a mim

    OBS: Essa música é uma versão de 'My immortal', de Evanescence
    Disponível http://cifraclub.terra.com.br/cifras/evanescence/my-immortal-ssgkk.html
    Veja outras versões dela no cifraclub


    Notas da escala (para solos, etc): A B C# D E F# G#
    acordes do Bm C#m D E F#m G#dim

    [Intro.:] (piano)

    A C#m A9 C#m
    E|------------------------------------------------------------------------------------:
    B|----------2----------------------2----------------------0------------------2--------:
    G|------2--------2------------1----------1------------2-------2---------1--------1----:
    D|----2---2----2---2-------2----2-----2----2--------2---2---2---2-----2---2----2---2--:
    A|--0--------------------4------------------------0-----------------4-----------------:
    E|------------------------------------------------------------------------------------:


    [Primeira parte:]
    A C#m
    Sem motivos pra sorrir
    A9 C#m
    É o que sinto quando você não está aqui
    A C#m
    E ao dormir sinto um vazio dentro de mim
    A9
    Que perturba e não quer sair
    C#m F#m
    Por que você me deixou só?

    [Pré-refrão]
    C#m F#m
    Sem céu pra colorir
    C#m F#m
    Sem flores pra florir
    C#m E
    Meus dias são de dor e aflição

    [Refrão]
    F#m D E C#m
    Quando você chorou eu cho rei também
    F#m D E C#m
    A dor de te perder não nos fez bem
    F#m D E C#m
    E hoje meu mundo não é feliz
    F#m D E
    Sem ter você junto a mim

    Solo:]
    A C#m A9 C#m (arpejando)

    [Segunda parte]
    A C#m
    Estou cansado de finjir

    Que te esqueci, te amei demais
    A9 C#m
    Pouco a pouco eu me per co mais e mais
    A C#m
    Sem te sentir, sem te beijar, te abraçar
    A9
    Tu é o sol do meu jardim
    C#m F#m
    Por que você me deixou só?

    [Pré-refrão]
    C#m F#m
    Sem céu pra colorir
    C#m F#m
    Sem flores pra florir
    C#m E
    Meus dias são de dor e aflição

    [Refrão:]
    F#m D E C#m
    Quando você chorou eu cho rei também
    F#m D E C#m
    A dor de te perder não nos fez bem
    F#m D E C#m
    E hoje meu mundo não é feliz
    F#m D E A C#m A9 C#m (arpejando)(solo)
    Sem ter você

    [Ponte:]
    D F#m E/C# D6
    Eu tentei te esque cer mas sei que não dá
    Bm E/C#
    Seu to que é especial em mim
    D E
    Se eu vivi foi só pra te a-...

    [Solo:]
    F#m D E C#m F#m D E C#m (entra o solo; depois toca normalmente)
    mar...

    e|---------------------------------------------
    B|-------10h12-10---10/9-----------------------
    G|-11h13------------------11---11h14-13-13p11-9
    D|---------------------------------------------
    A|---------------------------------------------
    E|---------------------------------------------

    e|----------------------------------9--9h10-9-----------------------
    B|-14-12-10/9/10---10/9------10h12------------11h13-12-14-12-10-9/10
    G|----------------------11------------------------------------------
    D|------------------------------------------------------------------
    A|------------------------------------------------------------------
    E|------------------------------------------------------------------


    [Refrão:]
    F#m D E C#m
    Quando você chorou eu cho rei também
    F#m D E C#m
    A dor de te perder não nos fez bem
    F#m D E C#m
    E hoje meu mundo não é feliz
    F#m D E A C#m A9 C#m (arpejando)(solo)
    Sem ter você junto a mim

    OBS 1: Os tempos das notas são: A recitante 1 e 2, nos trechos de A / A9 e C#m, cada acorde dura quatro tempos. No pré-refrão, em F#m e C#m, cada acordes dura dois tempos e encerra com E , quatro tempos. No refrão, todas os acordes duram dois tempos, exceto a último E, que dura oito. O solo depois do refrão tem acordes de duração igual à introdução.

    OBS: A introdução e o solo são os da canção original, 'My immortal'. Compare.

Forró Noda De Caju


    Ouvir Músicas Grátis - Ouvindo a música Meu mundo sem você, de Forró Noda De Caju - Sem motivos pra sorrir / É o que sinto quando você não está aqui / E ao dormir sinto um vazio dentro de mim / Que perturba e não quer sair / Por que voc

    Music Online© - Desde 1998
    por Andre Luis de Andrade
    | Twitter: @andreandrade : @iLoveMOLBR
    Versão Brasileira 'http://www.musiconline.com.br'
    Leia nossa Política de Privacidade