Bruno & Marrone

SERTANEJO

Music Online App on Facebook

Play

Programa De Fim De Semana

    parte) e D(segunda parte)
    Introdução: C G Am Em F G7 C B C G

    Solo da introdução:
    C G Am Em F
    E|--0--|---------------------------------------------------------------------------|
    B|--1--|--555--6--6/8----------5--5/6----------------------------------------------|
    G|--0--|---------------7--777----------5--555--7--7/9--9--7--------------10--9--7--|
    D|--2--|-----------------------------------------------------9/10--9--7--9---7--5--|
    A|--3--|---------------------------------------------------------------------------|
    E|-----|---------------------------------------------------------------------------|

    G C G*
    E|-----------|-----------| A parte do solo da introdução (G*) é opicional.
    B|-----------|-----------|
    G|--5--4--5--|--0--2--4--|
    D|--5--5--5--|-----------|
    A|-----------|-----------|
    E|-----------|-----------|

    C F C
    Não me deixe fora da sua agenda do fim de semana
    G
    Não esconda telefona não fuja de mim
    Am Em
    Invente uma desculpa pro seus pais
    F C
    Que vai na casa de uma amiga ou coisa assim
    D7 G
    Que eu já pensei num programa pra gente sair
    Am Em
    Entre um sorvete e outro um beijo na mão
    F C
    E eu no seu coração
    Am Em
    Já tenho as entradas de uma matinê
    F G G7
    Que eu quero ver com você
    C G Am
    E quando a noite chegar a gente vai a outro lugar
    Em F
    Matar o desejo de se amar
    D7 G G7
    Felicidade outra vez volta a sorrir
    C G Am
    Diga que vai dormir na sua amiga é natural
    Em F
    E que seus pais não leve a mal
    G7 C
    Eu quero é ter você pra mim

    Toque a introdução sem o (G*) e depois o acorde (A)

    D G D
    Não me deixe fora da sua agenda do fim de semana
    A
    Não esconda telefona não fuja de mim

    Bm F#m
    Invente uma desculpa pro seus pais
    G D
    Que vai na casa de uma amiga ou coisa assim
    E7 A
    Que eu já pensei num programa pra gente sair
    Bm F#m
    Entre um sorvete e outro um beijo na mão
    G D
    E eu no seu coração
    Bm F#m
    Já tenho as entradas de uma matinê
    G A
    Que eu quero ver com você
    D A Bm
    E quando a noite chegar a gente vai a outro lugar
    F#m G
    Matar o desejo de se amar
    E7 A A7
    Felicidade outra vez volta a sorrir

    D A Bm
    Diga que vai dormir na sua amiga é natural
    F#m G Toca e repete
    E que seus pais não leve a mal / uma vez
    A7 D /
    Eu quero é ter você pra mim /

    D A Bm
    E quando a noite chegar a gente vai a outro lugar
    F#m G
    Matar o desejo de se amar
    E7 A A7
    Felicidade outra vez volta a sorrir
    D A Bm
    Diga que vai dormir na sua amiga é natural
    F#m G
    E que seus pais não leve a mal
    A7 D
    Eu quero é ter você pra mim
    D Bm G
    Aqui assim pra mim oouuuooohhhhh
    A7 D Bm G
    Eu quero é ter você pra mim aqui assim pra mim oouuuohhh
    A7 D Bm G A7 D
    Eu quero é ter você pra mimmmmm aqui assim eu quero é ter você pra mim

    Solo:
    A Bm F#m E A
    E|------------------------------------------------------------------------------------|
    B|--777--8--8/10----------7--7/8------------------------------------------------------|
    G|----------------9--999----------7--777--9--9/11--11--9----------------12--11--9--7--|
    D|--------------------------------------------------------11/12--11--9--11--9---7--7--|
    A|------------------------------------------------------------------------------------|
    E|------------------------------------------------------------------------------------|
    D
    E|--------|
    B|--------|
    G|--6--7--|
    D|--7--7--|
    A|--------|
    E|--------|

Bruno & Marrone


    Ouvir Músicas Grátis - Ouvindo a música Programa De Fim De Semana, de Bruno & Marrone -

    You need Flash player 8+ and JavaScript enabled to view this video.
    Bruno e Marrone - Programa de fim de semana - KaraokeKaraokê ( Programa De Fim De Semana ) Bruno e MarroneJesse e Josue - Programa de Fim de Semana (Bruno e Marrone)Roberto Maia - Programa de Fim de Semana (Bruno e Marrone)Programa de fim de semana Dormi na praça - Bruno e Marrone (Ricardo Sillva )Programa de Fim de Semana - Bruno e Marrone ao Vivo no GRAN LimeiraRégis Pires | Programa de Fim de Semana - Bruno e MarroneBRUNO E MARRONE - PROGRAMA DE FIM DE SEMANA NA VOZ DE SOL MARQUES
    Music Online© - Desde 1998
    por Andre Luis de Andrade
    | Twitter: @andreandrade : @iLoveMOLBR
    Versão Brasileira 'http://www.musiconline.com.br'
    Leia nossa Política de Privacidade